  0
SECTION
  2
HEADER
  9
$ACADVER
  1
AC1009
  9
$EXTMAX
 10
669.713134765625
 20
327.098419189453
 30
0.0
  9
$EXTMIN
 10
9.5255327224731
 20
3.0742561817169
 30
0.0
  9
$INSUNITS
 70
     1
  9
$LUNITS
 70
     2
  9
$LUPREC
 70
     4
  9
$MEASUREMENT
 70
     0
  0
ENDSEC
  0
SECTION
  2
TABLES
  0
TABLE
  2
LAYER
 70
     1
  0
LAYER
  2
0
 70
     0
 62
     7
  6
Continuous
  0
LAYER
  2
Layer 1
 70
     0
 62
     0
  6
Continuous
  0
ENDTAB
  0
TABLE
  2
APPID
 70
     1
  0
APPID
  2
ACAD
 70
     0
  0
ENDTAB
  0
ENDSEC
  0
SECTION
  2
ENTITIES
  0
CIRCLE
  8
0
 10
26.1626597517717
 20
9.3642324290078
 30
0.0
 40
0.1
  0
CIRCLE
  8
0
 10
4.3390390777185
 20
7.9250938910453
 30
0.0
 40
0.09375
  0
CIRCLE
  8
0
 10
4.3390390777185
 20
5.0750938910453
 30
0.0
 40
0.09375
  0
CIRCLE
  8
0
 10
26.1626597517717
 20
1.9901924290078
 30
0.0
 40
0.1
  0
CIRCLE
  8
0
 10
20.1276837517717
 20
3.4922484290078
 30
0.0
 40
0.1
  0
CIRCLE
  8
0
 10
26.1626597517717
 20
7.2392164290078
 30
0.0
 40
0.1
  0
CIRCLE
  8
0
 10
19.4346437517717
 20
9.3782084290078
 30
0.0
 40
0.1
  0
CIRCLE
  8
0
 10
11.2310230777185
 20
5.4380928910453
 30
0.0
 40
0.15625
  0
CIRCLE
  8
0
 10
11.2310230777185
 20
5.8630548910453
 30
0.0
 40
0.15625
  0
CIRCLE
  8
0
 10
11.2310230777185
 20
6.2880778910453
 30
0.0
 40
0.15625
  0
CIRCLE
  8
0
 10
11.2310230777185
 20
6.7131018910453
 30
0.0
 40
0.15625
  0
CIRCLE
  8
0
 10
11.2310230777185
 20
7.1381018910453
 30
0.0
 40
0.15625
  0
CIRCLE
  8
0
 10
11.2310230777185
 20
7.5630858910453
 30
0.0
 40
0.15625
  0
CIRCLE
  8
0
 10
11.2310230777185
 20
5.4380928910453
 30
0.0
 40
0.197
  0
CIRCLE
  8
0
 10
11.2310230777185
 20
5.8630548910453
 30
0.0
 40
0.197
  0
CIRCLE
  8
0
 10
11.2310230777185
 20
6.2880778910453
 30
0.0
 40
0.197
  0
CIRCLE
  8
0
 10
11.2310230777185
 20
6.7131018910453
 30
0.0
 40
0.197
  0
CIRCLE
  8
0
 10
11.2310230777185
 20
7.1381018910453
 30
0.0
 40
0.197
  0
CIRCLE
  8
0
 10
11.2310230777185
 20
7.5630858910453
 30
0.0
 40
0.197
  0
CIRCLE
  8
0
 10
10.9110400777185
 20
5.2255738910453
 30
0.0
 40
0.08
  0
CIRCLE
  8
0
 10
10.9110400777185
 20
6.0755978910453
 30
0.0
 40
0.08
  0
CIRCLE
  8
0
 10
10.9110400777185
 20
6.9255818910453
 30
0.0
 40
0.08
  0
CIRCLE
  8
0
 10
10.9110400777185
 20
7.7755738910453
 30
0.0
 40
0.08
  0
POLYLINE
  8
0
 66
     1
 10
0.0
 20
0.0
 30
0.0
 70
     1
  0
VERTEX
  8
0
 10
3.9960390777185
 20
5.1985538910453
 42
0.8692464060396
  0
VERTEX
  8
0
 10
4.6393250777185
 20
5.1081158910453
 42
0.0
  0
VERTEX
  8
0
 10
4.9261936213046
 20
6.1082001739398
 42
0.0699499103628
  0
VERTEX
  8
0
 10
4.9310390777185
 20
6.1426658910453
 42
0.0
  0
VERTEX
  8
0
 10
4.9310390777185
 20
6.5000938910453
 42
0.0
  0
VERTEX
  8
0
 10
4.9310390777185
 20
6.8575198910453
 42
0.0699498402081
  0
VERTEX
  8
0
 10
4.9261940777185
 20
6.8919858910453
 42
0.0
  0
VERTEX
  8
0
 10
4.639324615873
 20
7.8920708777025
 42
0.869246459661
  0
VERTEX
  8
0
 10
3.9960390777185
 20
7.8016328910453
 42
0.0
  0
VERTEX
  8
0
 10
3.9960390777185
 20
6.7780938910453
 42
0.0
  0
VERTEX
  8
0
 10
3.5410390777185
 20
6.7780938910453
 42
0.0
  0
VERTEX
  8
0
 10
3.5410390777185
 20
7.3523398910453
 42
0.4185881629205
  0
VERTEX
  8
0
 10
3.2873110777185
 20
7.6023128910453
 42
0.0
  0
VERTEX
  8
0
 10
2.6689610777185
 20
7.5930908910453
 42
0.0
  0
VERTEX
  8
0
 10
2.6686932018971
 20
7.6820034300046
 42
0.0
  0
VERTEX
  8
0
 10
0.4916877478871
 20
7.6425559676363
 42
0.0
  0
VERTEX
  8
0
 10
0.4916877478871
 20
5.3347547104647
 42
0.0
  0
VERTEX
  8
0
 10
0.9811407216436
 20
5.3303798319781
 42
0.0
  0
VERTEX
  8
0
 10
0.9807560777185
 20
5.3864228910453
 42
0.0
  0
VERTEX
  8
0
 10
0.9807560777185
 20
5.4322738910453
 42
0.0
  0
VERTEX
  8
0
 10
3.2873110442653
 20
5.3978746890576
 42
0.4185881629205
  0
VERTEX
  8
0
 10
3.5410390777185
 20
5.6478468910453
 42
0.0
  0
VERTEX
  8
0
 10
3.5410390777185
 20
6.2220938910453
 42
0.0
  0
VERTEX
  8
0
 10
3.9960390777185
 20
6.2220938910453
 42
0.0
  0
SEQEND
  0
POLYLINE
  8
0
 66
     1
 10
0.0
 20
0.0
 30
0.0
 70
     1
  0
VERTEX
  8
0
 10
3.3120787582688
 20
8.9327316137643
 42
0.1462779714515
  0
VERTEX
  8
0
 10
2.8958781778505
 20
9.541282624996
 42
0.1091886935322
  0
VERTEX
  8
0
 10
1.6938137671126
 20
10.1412901830652
 42
-0.0239143026393
  0
VERTEX
  8
0
 10
1.2654706649108
 20
10.2706244863816
 42
-0.0680072519933
  0
VERTEX
  8
0
 10
1.0020441643276
 20
10.4073796509037
 42
-0.4815624769674
  0
VERTEX
  8
0
 10
0.9376555358704
 20
11.5219278374031
 42
-0.0571474549384
  0
VERTEX
  8
0
 10
1.1768768003388
 20
11.6919880509985
 42
-0.0916690458843
  0
VERTEX
  8
0
 10
1.856413612748
 20
11.9183167631446
 42
-0.1067670159007
  0
VERTEX
  8
0
 10
3.7447907396892
 20
11.778228919466
 42
-0.0178269575787
  0
VERTEX
  8
0
 10
4.1929706014862
 20
11.628657821953
 42
-0.0107754951397
  0
VERTEX
  8
0
 10
4.8959155102353
 20
11.3488449101935
 42
0.0192588468728
  0
VERTEX
  8
0
 10
5.4817254626146
 20
11.1271358393725
 42
0.0890540706832
  0
VERTEX
  8
0
 10
6.4890078613581
 20
11.0000702144258
 42
0.0827891118441
  0
VERTEX
  8
0
 10
7.6791646646364
 20
11.3252668211921
 42
0.0155310704651
  0
VERTEX
  8
0
 10
8.3590712021139
 20
11.6300078019687
 42
-0.0402122492627
  0
VERTEX
  8
0
 10
10.4240632791981
 20
12.5201486153686
 42
-0.0522172846717
  0
VERTEX
  8
0
 10
11.6390245397032
 20
12.8150628301921
 42
-0.0480480078849
  0
VERTEX
  8
0
 10
12.6924474065316
 20
12.8749543879822
 42
-0.2413554214045
  0
VERTEX
  8
0
 10
15.6602837141247
 20
11.173107110787
 42
-0.0487714759505
  0
VERTEX
  8
0
 10
15.9293971424506
 20
10.6549554673572
 42
-0.0344595223371
  0
VERTEX
  8
0
 10
16.1410955751676
 20
10.0000901494032
 42
-0.0176552504191
  0
VERTEX
  8
0
 10
16.1703180351092
 20
9.861949667251
 42
-0.029708754962
  0
VERTEX
  8
0
 10
16.3590706110784
 20
8.2099126006926
 42
-0.0170235262247
  0
VERTEX
  8
0
 10
16.3596110464779
 20
4.8060797733086
 42
-0.0054168132121
  0
VERTEX
  8
0
 10
16.3581581516525
 20
4.7736116946159
 42
-0.0272456996856
  0
VERTEX
  8
0
 10
16.1906932348193
 20
3.2577649656274
 42
-0.0335194022823
  0
VERTEX
  8
0
 10
16.0677703227017
 20
2.7363504375025
 42
-0.0279704935658
  0
VERTEX
  8
0
 10
15.873723420442
 20
2.2120310014462
 42
-0.0260369696763
  0
VERTEX
  8
0
 10
15.7808565671198
 20
2.0257408987798
 42
-0.2584243485901
  0
VERTEX
  8
0
 10
12.6838905310618
 20
0.1248421877725
 42
-0.0476984044259
  0
VERTEX
  8
0
 10
11.6390241439631
 20
0.1851251086736
 42
-0.0522166458895
  0
VERTEX
  8
0
 10
10.4240631796168
 20
0.4799915564132
 42
-0.0402313784251
  0
VERTEX
  8
0
 10
8.3590711724654
 20
1.3701804429834
 42
0.0155308915257
  0
VERTEX
  8
0
 10
7.679164996081
 20
1.6748725671997
 42
0.0828357066148
  0
VERTEX
  8
0
 10
6.4890077646604
 20
2.0000699009697
 42
0.1259230518698
  0
VERTEX
  8
0
 10
5.0941574988942
 20
1.7201800465709
 42
0.0115672796954
  0
VERTEX
  8
0
 10
4.4941101269281
 20
1.4748894034447
 42
-0.0250882697817
  0
VERTEX
  8
0
 10
3.7390074210871
 20
1.200054878462
 42
-0.0316906322971
  0
VERTEX
  8
0
 10
2.9988822523746
 20
1.0201483388578
 42
-0.0945217295788
  0
VERTEX
  8
0
 10
1.6890398741062
 20
1.0902431699781
 42
-0.1200670937367
  0
VERTEX
  8
0
 10
0.9039997519265
 20
1.5000691882038
 42
-0.0578468614885
  0
VERTEX
  8
0
 10
0.7039685570858
 20
1.7449683345244
 42
-0.165593365841
  0
VERTEX
  8
0
 10
0.4390397874364
 20
2.92014811375
 42
-0.0664234941297
  0
VERTEX
  8
0
 10
0.6240464950038
 20
3.7599443295785
 42
-0.0597201213129
  0
VERTEX
  8
0
 10
1.1610063287096
 20
4.8229976243961
 42
0.5589489670165
  0
VERTEX
  8
0
 10
0.8941760777185
 20
5.4077748910453
 42
0.0
  0
VERTEX
  8
0
 10
0.6968931881081
 20
5.4322334203873
 42
-0.3785310321919
  0
VERTEX
  8
0
 10
0.5390390777185
 20
5.6108658910453
 42
0.0
  0
VERTEX
  8
0
 10
0.5390390777185
 20
7.4127308910453
 42
-0.4142135623731
  0
VERTEX
  8
0
 10
0.7190390777185
 20
7.5927308910453
 42
0.0
  0
VERTEX
  8
0
 10
2.4488670777185
 20
7.5927308910453
 42
0.1539638001853
  0
VERTEX
  8
0
 10
3.0634290625983
 20
7.8711536285847
 42
-0.0047458912996
  0
VERTEX
  8
0
 10
3.1210630811452
 20
7.9288456105347
 42
0.2324654872256
  0
VERTEX
  8
0
 10
3.3738140988801
 20
8.6489391604664
 42
0.0476139310627
  0
SEQEND
  0
POLYLINE
  8
0
 66
     1
 10
0.0
 20
0.0
 30
0.0
 70
     1
  0
VERTEX
  8
0
 10
8.5256770777185
 20
10.6130698910453
 42
0.4142135623731
  0
VERTEX
  8
0
 10
8.1006770777185
 20
10.1880698910453
 42
0.0
  0
VERTEX
  8
0
 10
8.1006770777185
 20
10.0380698910453
 42
0.4142135623731
  0
VERTEX
  8
0
 10
8.5256770777185
 20
9.6130698910453
 42
0.0
  0
VERTEX
  8
0
 10
13.2956760777185
 20
9.6130698910453
 42
0.4142135623731
  0
VERTEX
  8
0
 10
13.6706760777185
 20
9.9880698910453
 42
0.0
  0
VERTEX
  8
0
 10
13.6706760777185
 20
10.2380698910453
 42
0.4142135623731
  0
VERTEX
  8
0
 10
13.2956760777185
 20
10.6130698910453
 42
0.0
  0
SEQEND
  0
POLYLINE
  8
0
 66
     1
 10
0.0
 20
0.0
 30
0.0
 70
     1
  0
VERTEX
  8
0
 10
21.2983608389486
 20
3.7922722163176
 42
0.4182064875868
  0
VERTEX
  8
0
 10
21.5516677517717
 20
4.0422084290078
 42
0.0
  0
VERTEX
  8
0
 10
21.5516677509161
 20
5.7422401128967
 42
0.4141653830554
  0
VERTEX
  8
0
 10
21.2089295704802
 20
5.9922426432708
 42
-0.6269566096636
  0
VERTEX
  8
0
 10
21.182313633669
 20
6.0687434345794
 42
-0.0086130855878
  0
VERTEX
  8
0
 10
21.2809433079676
 20
6.1690120481961
 42
0.2324654872256
  0
VERTEX
  8
0
 10
21.5959352787041
 20
7.0663663385773
 42
0.0476139310627
  0
VERTEX
  8
0
 10
21.5255962512476
 20
7.3897091035055
 42
0.1462779714515
  0
VERTEX
  8
0
 10
21.0405140164666
 20
8.0989760810465
 42
0.109323840335
  0
VERTEX
  8
0
 10
19.7544175838039
 20
8.7404835024369
 42
-0.023763795953
  0
VERTEX
  8
0
 10
19.3480765136743
 20
8.8632255791893
 42
-0.0672454601537
  0
VERTEX
  8
0
 10
19.1380423414054
 20
8.9717415249235
 42
-0.4833046119871
  0
VERTEX
  8
0
 10
19.0903603590115
 20
9.7553650314918
 42
-0.0569512017767
  0
VERTEX
  8
0
 10
19.2892309673792
 20
9.8969741635714
 42
-0.0921446789022
  0
VERTEX
  8
0
 10
19.8983803562711
 20
10.0997561425183
 42
-0.1063856279846
  0
VERTEX
  8
0
 10
21.6908232746289
 20
9.9673375589214
 42
-0.0179852442273
  0
VERTEX
  8
0
 10
22.1285083248219
 20
9.821462877583
 42
-0.0107849864704
  0
VERTEX
  8
0
 10
22.8235355570126
 20
9.5448159013637
 42
0.019824959826
  0
VERTEX
  8
0
 10
23.4426098690332
 20
9.3113177029371
 42
0.1852126013108
  0
VERTEX
  8
0
 10
25.5755456967189
 20
9.4078047691903
 42
-0.0099807349189
  0
VERTEX
  8
0
 10
26.0410336031994
 20
9.5993140135111
 42
-0.015391079056
  0
VERTEX
  8
0
 10
26.2102327191243
 20
9.6590146735316
 42
-0.5077211008704
  0
VERTEX
  8
0
 10
26.3666597517717
 20
9.5446774290078
 42
0.0
  0
VERTEX
  8
0
 10
26.3666597517717
 20
9.1412254290078
 42
0.9599768698744
  0
VERTEX
  8
0
 10
26.3666597517717
 20
7.8692914290078
 42
0.0
  0
VERTEX
  8
0
 10
26.3666597517717
 20
6.6202324290078
 42
0.0
  0
VERTEX
  8
0
 10
26.0786677517717
 20
6.6202324290078
 42
0.4142135623731
  0
VERTEX
  8
0
 10
25.8916677517717
 20
6.4332324290078
 42
0.0
  0
VERTEX
  8
0
 10
25.8916677517717
 20
4.8922324290078
 42
0.0
  0
VERTEX
  8
0
 10
25.8916677517717
 20
3.3502084290078
 42
0.4142135623731
  0
VERTEX
  8
0
 10
26.0786677517717
 20
3.1632084290078
 42
0.0
  0
VERTEX
  8
0
 10
26.3666597517717
 20
3.1632084290078
 42
0.0
  0
VERTEX
  8
0
 10
26.3666597517717
 20
1.9190864290078
 42
-0.2900126106667
  0
VERTEX
  8
0
 10
26.2950966400334
 20
1.8060842211846
 42
-0.0716741065528
  0
VERTEX
  8
0
 10
25.7369905104134
 20
1.6342876707694
 42
-0.0316910384937
  0
VERTEX
  8
0
 10
25.034140255676
 20
1.5695164701511
 42
-0.090997604439
  0
VERTEX
  8
0
 10
21.8744713583666
 20
2.0554052102163
 42
-0.0860239712086
  0
VERTEX
  8
0
 10
20.2103125608763
 20
2.9773737749434
 42
-0.2233466999604
  0
VERTEX
  8
0
 10
19.7658561408326
 20
3.8123343656398
 42
0.0
  0
SEQEND
  0
CIRCLE
  8
0
 10
16.0033668022037
 20
0.5000909143541
 30
0.0
 40
0.125
  0
CIRCLE
  8
0
 10
0.5000209930283
 20
12.5000280594427
 30
0.0
 40
0.125
  0
CIRCLE
  8
0
 10
16.0000209930283
 20
12.5000280594427
 30
0.0
 40
0.125
  0
CIRCLE
  8
0
 10
0.5000209930283
 20
0.5000280594427
 30
0.0
 40
0.125
  0
CIRCLE
  8
0
 10
26.1626597517717
 20
9.3642324290078
 30
0.0
 40
0.0625
  0
CIRCLE
  8
0
 10
26.1626597517717
 20
1.9901924290078
 30
0.0
 40
0.0625
  0
CIRCLE
  8
0
 10
10.9110400777185
 20
7.7755738910453
 30
0.0
 40
0.0425
  0
CIRCLE
  8
0
 10
10.9110400777185
 20
6.9255818910453
 30
0.0
 40
0.0425
  0
CIRCLE
  8
0
 10
10.9110400777185
 20
6.0755978910453
 30
0.0
 40
0.0425
  0
CIRCLE
  8
0
 10
10.9110400777185
 20
5.2255738910453
 30
0.0
 40
0.0425
  0
CIRCLE
  8
0
 10
11.2310230777185
 20
7.5630858910453
 30
0.0
 40
0.065
  0
CIRCLE
  8
0
 10
11.2310230777185
 20
7.1381018910453
 30
0.0
 40
0.065
  0
CIRCLE
  8
0
 10
11.2310230777185
 20
6.7131018910453
 30
0.0
 40
0.065
  0
CIRCLE
  8
0
 10
11.2310230777185
 20
6.2880778910453
 30
0.0
 40
0.065
  0
CIRCLE
  8
0
 10
11.2310230777185
 20
5.8630548910453
 30
0.0
 40
0.065
  0
CIRCLE
  8
0
 10
11.2310230777185
 20
5.4380928910453
 30
0.0
 40
0.065
  0
CIRCLE
  8
0
 10
20.1276837517717
 20
3.4922484290078
 30
0.0
 40
0.0625
  0
CIRCLE
  8
0
 10
26.1626597517717
 20
7.2392164290078
 30
0.0
 40
0.0625
  0
CIRCLE
  8
0
 10
19.4346437517717
 20
9.3782084290078
 30
0.0
 40
0.0625
  0
CIRCLE
  8
0
 10
2.9140320777185
 20
5.7501558910453
 30
0.0
 40
0.08
  0
CIRCLE
  8
0
 10
2.9140320777185
 20
7.2501558910453
 30
0.0
 40
0.08
  0
CIRCLE
  8
0
 10
0.9140320777185
 20
7.2501558910453
 30
0.0
 40
0.08
  0
CIRCLE
  8
0
 10
0.9140320777185
 20
5.7501558910453
 30
0.0
 40
0.08
  0
POLYLINE
  8
0
 66
     1
 10
0.0
 20
0.0
 30
0.0
 70
     1
  0
VERTEX
  8
0
 10
5.3942624040192
 20
6.6768706079393
 42
1.0
  0
VERTEX
  8
0
 10
5.7478160777185
 20
6.3233168910453
 42
0.0
  0
VERTEX
  8
0
 10
7.4236587730151
 20
7.9991601957487
 42
0.4142135623731
  0
VERTEX
  8
0
 10
7.4236587730151
 20
8.3527135863419
 42
0.4142135623731
  0
VERTEX
  8
0
 10
7.0701060777185
 20
8.3527138910453
 42
0.0
  0
SEQEND
  0
POLYLINE
  8
0
 66
     1
 10
0.0
 20
0.0
 30
0.0
 70
     1
  0
VERTEX
  8
0
 10
9.4182485990108
 20
5.2656296712322
 42
0.2557305258762
  0
VERTEX
  8
0
 10
9.5907620777185
 20
5.4526488910453
 42
0.0
  0
VERTEX
  8
0
 10
10.0070414272789
 20
7.1222515169076
 42
0.2557305258762
  0
VERTEX
  8
0
 10
9.9425210777185
 20
7.3683688910453
 42
0.0
  0
VERTEX
  8
0
 10
9.5135475658943
 20
7.8223229867733
 42
0.484022848039
  0
VERTEX
  8
0
 10
8.8416510777185
 20
7.7631208910453
 42
0.0
  0
VERTEX
  8
0
 10
8.1942366270689
 20
6.7778436633396
 42
0.1701109748995
  0
VERTEX
  8
0
 10
8.1518410777185
 20
6.6078028910453
 42
0.0
  0
VERTEX
  8
0
 10
8.2609140777185
 20
5.4339118910453
 42
0.4840228211112
  0
VERTEX
  8
0
 10
8.8263690980441
 20
5.0662028125937
 42
0.0
  0
SEQEND
  0
POLYLINE
  8
0
 66
     1
 10
0.0
 20
0.0
 30
0.0
 70
     1
  0
VERTEX
  8
0
 10
22.0386297517717
 20
3.8881134290078
 42
0.0
  0
VERTEX
  8
0
 10
22.0386297517717
 20
5.8963414290078
 42
-0.4142135623731
  0
VERTEX
  8
0
 10
22.3461297517717
 20
6.2038414290078
 42
-0.4142135828209
  0
VERTEX
  8
0
 10
22.6536297517717
 20
5.8963414290078
 42
0.0
  0
VERTEX
  8
0
 10
22.6536297517717
 20
3.8881134075402
 42
-0.4142135419253
  0
VERTEX
  8
0
 10
22.3461297517717
 20
3.5806134290078
 42
-0.4142135623731
  0
SEQEND
  0
ENDSEC
  0
EOF
